Sie sind vermutlich noch nicht im Forum angemeldet - Klicken Sie hier um sich kostenlos anzumelden  

SCOREFOR(UM) - PUNKROCK FROM BAVARIA

Sie können sich hier anmelden
Dieses Thema hat 39 Antworten
und wurde 2.823 mal aufgerufen
 FRAGEN ÜBER/AN SCOREFOR
Seiten 1 | 2 | 3
Ramona Offline




Beiträge: 173

06.12.2006 14:59
#31 RE: E-Bass Tabs? antworten

ja hab ich! du bist ein gedankenleser *lach*

Stef Offline




Beiträge: 116

06.12.2006 16:12
#32 RE: E-Bass Tabs? antworten

dann is ja jetz klaaaar aufm basaaaar
--------------------------------------------------

Manche Männer bemühen sich lebenslang, das Wesen einer Frau zu verstehen. Andere befassen sich mit weniger schwierigen Dingen z.B. der Relativitätstheorie. Albert Einstein (40) 14.03.1879 - 18.04.1955 deutscher Physiker und Nobelpreisträger

--------------------------------------------------

Ramona Offline




Beiträge: 173

06.12.2006 18:05
#33 RE: E-Bass Tabs? antworten
jep, aber klavier oder keyboard is ja auch viel leichter als e-gitarre......
naja egal! *g*

hansl Offline




Beiträge: 83

06.12.2006 19:42
#34 RE: E-Bass Tabs? antworten

glaub ich aber nicht...

Ramona Offline




Beiträge: 173

07.12.2006 18:28
#35 RE: E-Bass Tabs? antworten

also ich finds scon das des leichter is!

Stef Offline




Beiträge: 116

23.12.2006 11:48
#36 RE: E-Bass Tabs? antworten

klavier bzw. keyboard is verdammt schwer, ich spiel keyboard jetz seit 2 jahren... hab davor auch mal gitarre gespielt! naja, wenn man des lernen will dann gehts immer einfach.. ;-)
--------------------------------------------------

Manche Männer bemühen sich lebenslang, das Wesen einer Frau zu verstehen. Andere befassen sich mit weniger schwierigen Dingen z.B. der Relativitätstheorie. Albert Einstein (40) 14.03.1879 - 18.04.1955 deutscher Physiker und Nobelpreisträger

--------------------------------------------------

barbieswimcrew Offline

Streetteam

Beiträge: 51

28.12.2006 01:20
#37 RE: E-GIT Tabs? antworten

Was lange währt, wird schlussendlich gut! Hat etwas gedauert, weil ich wenig Zeit hatte aber jetzt hab ich mir endlich mal die Mühe gemacht und die Tabs zu "the clock is ringing" rausgeschrieben. Ich hoffe die passen soweit... Viel Spaß damit! Sollte noch jemand irgendwelche Songwünsche haben bzw das Verlangen nach den Tabs dazu, der möge sich doch einfach bei mir melden!

The clock is ringing


guitar I
Intro I (clean) 0:00
e|----------------------------------1-0-|-----------------------------------|
H|----------1-0-----1-0-----1-0-------3-|---------------0h1-------1-----5-3-|
G|------0-----0-------0-------2---2-----|---2---2-4-----0---0---2-------0-0-|
D|----2---2---------------2-----0-------|-------3-5---2-------3-------------|
A|--3-------------2-----0---------------|-----------3-----------------2-----|
E|--------------3-----------------------|-1---1---------------------3-------|
Verse I (clean) 0:19
e|------------------------------1-0-|---------------------------------------|
H|------1-0-----1-0-----1-0-------3-|---------------0h1-----1---------3-----|
G|--------0-------0-------2---2-----|---2---2-4-----0-------2---------4-----|
D|----2---------------2-----0-------|-------3-5---2-------------3---------5-|
A|--3---------2-----0---------------|-----------3---------3---3-----5---5---|
E|----------3-----------------------|-1---1-------------1---------3---------|
Verse II (clean) 0:36 up and down strokes
e|------------------------------1-0-|-----------------------------0---------|
H|------1-0-----1-0-----1-0-------3-|---------------0h1-----1-----3---------|
G|--------0-------0-------2---2-----|---2---2-4-----0-------2-----4---------|
D|----2---------------2-----0-------|-------3-5---2-------------3-5---------|
A|--3---------2-----0---------------|-----------3---------3---3---5---------|
E|----------3-----------------------|-1---1-------------1---------3---------|
Chorus I (clean) 0:54 let ring
e|---0---3---0---0---1-0-0---1---3---|---0---3---0---0---1-0-0---1---3------|
H|---1---0---1---0---1-0-1---1---3---|---1---0---1---0---1-0-1---1---3------|
G|---0---0---2---0---2-4-2---2---4---|---0---0---2---0---2-4-2---2---4------|
D|---2---0---2---2---3-5-2---3---5---|---2---0---2---2---3-5-2---3---5------|
A|---3---2---0---2---3-5-0---3---5---|---3---2---0---2---3-5-0---3---5------|
E|-------3-------0---1-------1---3---|-------3-------0---1-------1---3------|
Outro Chorus (clean) 2:21 let ring let ring
e|---0---3---0---0---1-0-0---1------------------------0--------------------||
H|---1---0---1---0---1-0-1---1------------------------1--------------------||
G|---0---0---2---0---2-4-2---2---55-5-55-5-4----------0--------------------||
D|---2---0---2---2---3-5-2---3---55-5-55-5-5----------2--------------------||
A|---3---2---0---2---3-5-0---3---33-3-33-3-5----------3--------------------||
E|-------3-------0---1-------1---------------------------------------------||
b - bending
p - pulloff
h - hammer on
P.M - palm mute
~ - vibrato
/ - slide up



tabbed by barbieswimcrew
-_-_-_-_-_-_-_-_-_-_-_-_-
don't teach your grandmother how to suck eggs!

Ramona Offline




Beiträge: 173

29.12.2006 08:51
#38 RE: E-GIT Tabs? antworten

hey, danke, du bist echt n schatz!

__________________________________________________
CHEERS !!!

KNW Offline



Beiträge: 1

21.01.2009 12:44
#39 RE: E-Bass Tabs? antworten

hallo zusammen

ich hätte da auch noch en song wunsch.
wär cool wenn ich die tabs für where are the flowers hätte
thx im voraus

Max Offline



Beiträge: 1

23.07.2009 22:31
#40 E-Git Tabs antworten

Tach allerseits,

mal ne kleine bitte:
ICh bräuchte mal bitte die Gitarren-Tabs von "Old and Grey" oder "Can't wake up" .

Wenn ihr mir da helfewn könntet wäre ich euch sehr verbunden^^

Seiten 1 | 2 | 3
 Sprung  
Xobor Forum Software ©Xobor.de | Forum erstellen