Sie sind vermutlich noch nicht im Forum angemeldet - Klicken Sie hier um sich kostenlos anzumelden  

SCOREFOR(UM) - PUNKROCK FROM BAVARIA

Sie können sich hier anmelden
Dieses Thema hat 39 Antworten
und wurde 2.819 mal aufgerufen
 FRAGEN ÜBER/AN SCOREFOR
Seiten 1 | 2 | 3
verena Offline




Beiträge: 41

20.10.2006 13:41
E-GIT Tabs? antworten
Gibts irgendwo E-Bass Tabs zu euren Liedern?
Würd die gern mal nachspieln :)

barbieswimcrew Offline

Streetteam

Beiträge: 51

20.10.2006 14:12
#2 RE: E-Bass Tabs? antworten

Also die Basslines sind eigentlich ganz leicht rauszuhören. Hat sich irgendwie noch nie jemand die Mühe gemacht Tabs rauszuschreiben.
-_-_-_-_-_-_-_-_-_-_-_-_-
don't teach your grandmother how to suck eggs!

hansl Offline




Beiträge: 83

20.10.2006 15:21
#3 RE: E-Bass Tabs? antworten

ja , oder tabs überhaupt.des wär cool. zum raushören bin ich zu schlecht.
--------------------------------------------------
eightball würfel flammen karten nur die harten komm' in garten
->montreal. gut für dich.

barbieswimcrew Offline

Streetteam

Beiträge: 51

20.10.2006 15:25
#4 RE: E-Bass Tabs? antworten

kommt drauf an was genau du haben willst, ich kann dir schon ein paar Sachen raushören. Sag an Mann! ;-)
-_-_-_-_-_-_-_-_-_-_-_-_-
don't teach your grandmother how to suck eggs!

hansl Offline




Beiträge: 83

20.10.2006 22:01
#5 RE: E-Bass Tabs? antworten

woah....cool! also was hast du im angebot? ich weiß ja nicht was du rausgehört hast, aber am liebsten eins von der aktuellen CD.
merce!
--------------------------------------------------
eightball würfel flammen karten nur die harten komm' in garten
->montreal. gut für dich.

verena Offline




Beiträge: 41

20.10.2006 22:32
#6 RE: E-Bass Tabs? antworten

Ja raushören kann ich auch nicht...
Hau die Tabs her :D

barbieswimcrew Offline

Streetteam

Beiträge: 51

21.10.2006 12:54
#7 RE: E-Bass Tabs? antworten

Also ein paar Melodien hab ich schon rausgehört und die Begleitung bzw dann eben die Basslines noch nicht so genau beachtet aber ich hör mir das heut Nachmittag mal etwas an und dann sehen wir ja was rauskommt ;-)
-_-_-_-_-_-_-_-_-_-_-_-_-
don't teach your grandmother how to suck eggs!

barbieswimcrew Offline

Streetteam

Beiträge: 51

21.10.2006 15:02
#8 RE: E-Bass Tabs? antworten

Sodala, auf Wunsch erst mal was von der aktuellen Platte, daher "No matter what you do". Dürfte im großen und ganzen passen oder was meint ihr Andy und Schteeve?



No matter what you do


guitar I
Intro II (dist) 0:08
e|-------------------------------------------------------------------------------|
H|--------------------------------------------------------------5/6-5-3-3/5-3----|
G|--7b8-7-7p5---5-----5-7b8-7-7p5---5-----5-7b8-7-7p5---5-----5---------------5--|
D|------------7---5-7-------------7---5-7-------------7---5-7--------------------|
A|-------------------------------------------------------------------------------|
E|-------------------------------------------------------------------------------|


IntroI(clean) 0:00 IntroII(dist) 0:08 Verse(dist) 0:24 BridgeI(dist)0:40
e|----------0---1-----|---------------------|--------------------|-------------------------------------------------|
H|----------1---1-----|---------------------|--------------------|-P.M-----------------------P.M-------------------|
G|--5---0---2---2-0---|---5-----------------|---5---5------------|--5--P.M-P.M----------------5--P.M P.M-----------|
D|--5---5---2---3-5---|---5---5---3---7-5---|---5---5---3---7-5--|--5---7---5---3-2-3-2-3-2---5---7---5---3---7-5--|
A|--3---5---------5---|---3---5---3---7-5---|---3---3---3---7-5--|--3---7---5---3-2-3-2-3-2---3---7---5---3---7-5--|
E|--------------------|-------3---1---5-3---|-----------1---5-3--|------5---3---1-0-1-0-1-0-------5---3---1---5-3--|


ChorusI(dist) 0:58 Interlude(dist) 2:20 ChorusII(clean) 2:36 ChorusIII(dist) 2:52
e|---------------------|---------------------------------------|-----------0---1-----|---------------------|
H|---------------------|---------------------5/6-5-3-3/5-3-----|-----------1---1-----|---------------------|
G|---5-----------------|---7b-5~-7b-5~-7b-5~---------------5---|---5---0---2---2-0---|---6-----------------|
D|---5---5---3---7-5---|---------------------------------------|---5---5---2---3-5---|---6---6---4---8-6---|
A|---3---5---3---7-5---|---------------------------------------|---3---5---------5---|---4---6---4---8-6---|
E|-------3---1---5-3---|---------------------------------------|---------------------|-------4---2---6-4---|


Outro Chorus(dist) 3:00
e|-------------------------||
H|-------------------------||
G|--6-------------------6--||
D|--6---6---4---8-6-4-6-6--||
A|--4---6---4---8-6-4-6-4--||
E|------4---2---6-4-2-4----||


b - bending
p - pulloff
P.M - palm mute
~ - vibrato
/ - slide up



tabbed by barbieswimcrew
-_-_-_-_-_-_-_-_-_-_-_-_-
don't teach your grandmother how to suck eggs!

verena Offline




Beiträge: 41

22.10.2006 13:14
#9 RE: E-Bass Tabs? antworten

dankeschööön <3

hansl Offline




Beiträge: 83

22.10.2006 13:15
#10 RE: E-Bass Tabs? antworten

merce!
--------------------------------------------------
eightball würfel flammen karten nur die harten komm' in garten
->montreal. gut für dich.

barbieswimcrew Offline

Streetteam

Beiträge: 51

22.10.2006 13:20
#11 RE: E-Bass Tabs? antworten

Kein Ding, hat keine halbe Stunde gedauert das rauszuhören. Sonst noch irgendwelche konkreten Songwünsche?
-_-_-_-_-_-_-_-_-_-_-_-_-
don't teach your grandmother how to suck eggs!

Ramona Offline




Beiträge: 173

03.11.2006 19:51
#12 RE: E-Bass Tabs? antworten

hey leutz!

ich bräuchte gitarren noten für "the clock is ringing"

hat die jemand ??????????????????


barbieswimcrew Offline

Streetteam

Beiträge: 51

04.11.2006 01:17
#13 RE: E-Bass Tabs? antworten

hey verena, ich hör mich die nächsten Tage mal durch den Song durch okay?

-_-_-_-_-_-_-_-_-_-_-_-_-
don't teach your grandmother how to suck eggs!

verena Offline




Beiträge: 41

04.11.2006 19:54
#14 RE: E-Bass Tabs? antworten

öhm , ich bin verena xD das war ramona.

barbieswimcrew Offline

Streetteam

Beiträge: 51

04.11.2006 21:26
#15 RE: E-Bass Tabs? antworten

hehe lol... sorry! irgendwie hab ich da wohl was durcheinander gebracht... naja. dich dürften dei Tabs ja dann sicher auch interessieren ;-)
Allerdings bin ich noch nicht dazu gekommen. -------> stay tuned!
-_-_-_-_-_-_-_-_-_-_-_-_-
don't teach your grandmother how to suck eggs!

Seiten 1 | 2 | 3
 Sprung  
Xobor Forum Software ©Xobor.de | Forum erstellen